Login
 

Codalofagus T. Rex — Heath, OH

Genre: Blues / Indie / Punk



Song Information

Title: Gates of Heaven (Preview/no vox)

Price: 0.99

Content Guide: Clean

 

 

Lyrics

If you saw me standing there,
at the Gates of Heaven,
Would you stay for a while.

or Would you leave me broken?
Standing alone in the air
Waiting for your smile?

and You don't know what you did to me.
You don't know what you did,
So go.


Tablature

*Verse*
Guitar I
G|---7-7-----7-7-----7-7-----7-7---
D|--5-5-5-5-5-5-5-5-5-5-5-5-5-5-5-5
A|-7-----7-5-----5-3-----3-5-----5-

*Chorus*
Guitar I
G|---7-7-----7-7-----7-7-----7-7---
D|--5-5-5-5-5-5-5-5-5-5-5-5-5-5-5-5
A|-7-----7-5-----5-3-----3-5-----5-

Guitar II
G|-9999-7777-5555-7777-9999-7777-5555-7~
A|-7777-5555-3333-5555-7777-5555-3333-5~

*Solo*
Guitar I
G|---7-7-----7-7-----7-7-----7-7---
D|--5-5-5-5-5-5-5-5-5-5-5-5-5-5-5-5
A|-7-----7-5-----5-3-----3-5-----5-

Guitar II
G|---------------------7---------
D|-5-79-1095--5-79-1097-5------5-
A|------------------------7-5-3--
E|------------------------------3

*Little End thing*
Both Guitars
D|-99999-77777X5~
A|-77777-55555X3~


0
No votes yet

Premium Artists