Menu

Login or register to interact with this artist.
TheShakedown

TheShakedown

River Forest IL
AlternativePopRock
0

Lovesong

2.77778
Music Genre: 
SKU: TRK-9877-22542
Content Guide: 
Clean
Lyrics: 

Hey man, let me tell you about this girl
She's short and sweet and listens to me
As inviting as can be
When I look inside her all I see is me!

CHORUS
I think I love her, but what do I know?
I'm miles above her, looking up at her
She's a woman, and I'm just a boy
But I'm telling you man, there's something about her

Now I know it's crazy, but man, what a lady!
I bet if she kissed me, your bullets might miss me
When I'm with her, I'm never bitter
Man, that rhyme sucked...have I mentioned her smile?

Tabs: 

Standard Tuning

Intro x2 (Distorted second time)
|-0---4-5-4--5--7--5--4-(x3)--------0---4-5-4--5--7--7/9--7-----|
|---------------------------------------------------------------|
|---------------------------------------------------------------|
|---------------------------------------------------------------|
|---------------------------------------------------------------|
|---------------------------------------------------------------|

Verse (Clean, open chords)
D G
Hey man let me tell you about this girl
D A
She's short and sweet and listens to me
D G
As inviting as can be
D A7
When I look inside her all I see is me

Chorus (clean first chorus, distorted for the rest of them)
|---------------------------------------------------------------|
|---------------------------------------------------------------|
|---------------------------------------------------------------|
|---------------------------------------------------------------|
|2---6-7-6--7--9--7-6--------2---6-7-6--7--9-11--9--------------|
|0---4-5-4--5--7--5-4--(x3)--0---4-5-4--5--7-9---7--------------|

Verse 2 (Clean, open chords)
D G
Now I know it's crazy, but man, what a lady
D A
I bet if she kissed me your bullets might miss me
D G
When I'm with her I'm never bitter
D A7
Man, that rhyme sucked...have I mentioned her smile?

Solo 1

|---------------------------------------------------------------|
|---------------------------------------------------------------|
|---------------------------------------------------------------|
|---------------------------------------------------------------|
|---------------------------------------------------------------|
|(7)-0-2-4-2-4-5-4-5-7-5-7-9-7-5-4-2-4-5-0--0-5-4-2-0--0-5-4-2-4|

|---------------------------------------------------------------|
|---------------------------------------------------------------|
|---------------------------------------------------------------|
|---------------------------------------------------------------|
|---------------------------------------------------------------|
|0-5-4-2-4-5-5-5-5----------------------------------------------|

For the bridge, arpeggiate the verse chords, with distortion, twice: first with palm muting, then without.

Solo 2
|9h10-10-10-9h10-9\7-7-7-7h9-9\5-5-5-5h7-7/9-9-7---17-----------|
|---------------------------------------------------------------|
|---------------------------------------------------------------|
|---------------------------------------------------------------|
|---------------------------------------------------------------|
|---------------------------------------------------------------|

|9h10-10-10-9h10-9\7-7-7-7h9-7\5-5-5-5h7-7/9-9-7---17-----------|
|---------------------------------------------------------------|
|---------------------------------------------------------------|
|---------------------------------------------------------------|
|---------------------------------------------------------------|
|---------------------------------------------------------------|

Then play Solo 1 again, but on the high E string instead of the low one.

Song order

Intro
Verse
Chorus
Solo 1
Verse
Chorus
Bridge
Chorus
Solo 2
Chorus

Add a New Comment

Login or register to post comments
This artist has not established any "friend" relationships.
Feedback